fbpx

O melhor site de cifras gospel do Brasil! Acesse:
escoladolouvor.com

Tom: Am

Afinação D A D G B E

E|---------------------|--------------------------------------------------|
B|---------------------|--------------------------------------------------|
G|---------------------|--------------------------------------------------|
D|---------------------|--3/5.../7-7-7-7/3-3-3-3/5-5-5-5--0---------------|
A|--3/5.../3-3-3-3/5...|--------------------------------------------------|
E|---------------------|--------------------------------------------------|

E|----------------------------------------------|
B|----------------------------------------------|
G|-----5---5---5---5----------------------------|
D|--/7---7---7---7---7-7-7p5-3-3/5-0------------|
A|----------------------------------------------|
E|----------------------------------------------|

E|-----------------------------------------------------------------------------------------------------------------------|
B|------6--6-6-6/8--8-8-8/10--10-10-10/13--13-13-13/12--12-12-12/10--10-10-10/8--8-8-8/10--11-11p9----5-5-5-5/3----------|
G|----7---------------------------------------------------------------------------------------------------------7--------|
D|-/7--------------------------------------------------------------------------------------------------------------------|
A|-----------------------------------------------------------------------------------------------------------------------|
E|-----------------------------------------------------------------------------------------------------------------------|

E|--------------------------------0-0------|
B|-------------------------------3---3-----|
G|------------------------------2-----2----|
D|--------0-3-0-------0--------0-------0---|
A|--0-0-3-------0-0-3---------0---------0--|
E|----------------------3-0----------------|

Intro
            Am          F9           C             G
E|------------------0---------------------3---------|
B|---------1----------1----1---------1--------------|
G|-------2--------------2----------0----------------|
D|-----2---------3--------3-3----2------------------| (2x)
A|---0-------------------------3--------5--------3-0|
E|--------------------------------------5-----3h5---|

Solo

Am F C G E|------------------------------------------------------------------------------------------| B|-------------------10--12--10-------------------------------------------------------------| G|-9--12--12b14---------------12b14--14r12--10--9-------------------------------------------| D|---------------------------------------------------------------12-------------------------| A|------------------------------------------------------------------------------------------| E|------------------------------------------------------------------------------------------| E|---------------------------------------------------------------------------15----15b17----| B|------------------------------13b15-15r13-13-12---------22b20---15------------------------| G|----14-16-16b17-14-16--------------------------14-12--------------------------------------| D|-14---------------------------------------------------------------------------------------| A|------------------------------------------------------------------------------------------| E|------------------------------------------------------------------------------------------| Am F C G Am Um povo em pleno deserto a nuvem estava por perto F C G Am Não tinha fome nem sede, pois Deus estava com ele ( F C G Am ) Am F C G Um povo em pleno deserto e não havia doentes Am F C G Am Mana que vinha do céu matava a fome daquela gente ( F C G Am ) F C G Am As pernas nunca inchavam as roupas nunca envelheciam F C G Am Sapatos não terminavam pelo caminho que seguiam ( F C G Am ) F C G Am Que Deus é este? Que está por perto F C G Am Que fez o seu projeto no deserto F C G Am Que Deus é este? Que está por perto F C G Am Que fez o seu projeto no deserto E|-------------------------------------------------------------------------------------15----15b17-15b17-| B|---------12-10-12----------------12-13-15-15b17-13-------------12-13---15b17-15------------------------| G|-12b14-----------12-9-------14-------------------------14---14-----------------------------------------| D|---------------------------12--------------------------------------------------------------------------| A|-------------------------------------------------------------------------------------------------------| E|-------------------------------------------------------------------------------------------------------| Am F C G Am Um povo em pleno deserto a nuvem estava por perto F C G Am Não tinha fome nem sede, pois Deus estava com ele ( F C G Am ) Am F C G Um povo em pleno deserto e não havia doentes Am F C G Am Mana que vinha do céu matava a fome daquela gente ( F C G Am ) F C G Am As pernas nunca inchavam as roupas nunca envelheciam F C G Am Sapatos não terminavam pelo caminho que seguiam ( F C G Am ) F C G Am Que Deus é este? Que está por perto F C G Am Que fez o seu projeto no deserto F C G Am Que Deus é este? Que está por perto F C G Am Que fez o seu projeto no deserto F C G Am Que Deus é este? Que está por perto F C G Am Que fez o seu projeto no deserto F C G Am Que Deus é este? Que está por perto F C G Am Que fez o seu projeto no deserto E|----------------------------------------5-7-7h8-8h7--3h5-----8-10-10h12-12-12-12p13h12| B|---------------------------------------5--------------------8-------------------------| G|----2-4-4h5--4--2---------------------------------------------------------------------| D|---2------------------5-2-3-5---------------------------------------------------------| A|------------------------------3h5-----------------------------------------------------| E|--------------------------------------------------------------------------------------| E|--5p8---------------------------------------------------------------------------------| B|-----5p8------------------------------------------------------------------------------| G|--------5p7-5---10--10-10-10/8/6/5/3-3--------0-2-2-2-0-----2-2-0-0-------------------| D|-----------7-----9---9--9--9/9/7/5/4-4-----0p2-----------0p2--------------------------| A|--------------------------------------------------------------------------------------| F C G Am Que Deus é este? Que está por perto F C G Am Que fez o seu projeto no deserto F C G Am Que Deus é este? Que está por perto F C G Am Que fez o seu projeto no deserto