fbpx

O melhor site de cifras gospel do Brasil! Acesse:
escoladolouvor.com

INTRO

RIFF 1A 

C |--------------------------------||------------|--------|
G |--------------------------------||------------|--------|
D#|--------------------------------||------------|--------|
A#|--------------------------------||------------|--------|
F |-2--222--2--222--2--222--222--2-||-5--0--5----|--8-7-5-|
C |-0--000--0--000--0--000--000--0-||-3--0--3----|--6-5-3-|
REPETE 1ª vez 2ª vez


RIFF 1B
H~
C |------------------||------------|--------|
G |------------------||------------|--------|
D#|------------------||------------|--------|
A#|------------------||------------|--------|
F |--222---222---222-||------------|--8-7-5-|
C |--000---000---000-||-3--0--3----|--6-5-3-|
REPETE 1ª vez 2ª vez
https://youtu.be/c1WEkyE6iOQ
ESTROFE A
PM PM PM PM
C |-----------------------------------------------------|
G |-----------------------------------------------------|
D#|------------------------------5----------------7-----|
A#|------------------------------5----(2)(2)-2----7-----|
F |--2--2--(2)(2)--2--(2)--2-----3----(0)(0)-0----5-----|
C |--0--0--(0)(0)--0--(0)--0----------------------------|


ESTROFE A (FINAL)

C |----------------|
G |----------------|
D#|----------------|
A#|----------------|
F |----------------|
C |--3-2-3-5-3-2-3-|
PRÉ-REFRÃO A

C |------------------------------------------------------------|
G |------------------------------------------------------------|
D#|------------------------------------------------------------|
A#|-------------------------------5-5-5--5-5-5--2-2-2---7-7-7--|
F |--2-2-2--2-2-2--2-2-2--2-2-2---3-3-3--3-3-3--0-0-0---5-5-5--|
C |--0-0-0--0-0-0--0-0-0--0-0-0--------------------------------|

PRÉ-REFRÃO A (VARIAÇÃO)
H~
C |-------------------------------------------------------------|
G |-------------------------------------------------------------|
D#|-------------------------------------------------------------|
A#|--------------------------------5-5-5--5-5-5--2-2-2---7-7-7--|
F |--2-2-2--2-2-2--2-2-2-----------3-3-3--3-3-3--0-0-0---5-5-5--|
C |--0-0-0--0-0-0--0-0-0--3-0-3~--------------------------------|

PRÉ-REFRÃO B
PM PM PM
C |----------------------------------------------|
G |----------------------------------------------|
D#|----------------------------------------------|
A#|--5--5--(5)(5)---5--(5)-5----7~-----------7---|
F |--3--3--(3)(3)---3--(3)-3----5~---2---5---5---|
C |----------------------------------0---3-------|
REPETE


PRÉ-REFRÃO B (FINAL)
H~
C |--------------------------------------------------|
G |--------------------------------------------------|
D#|-12p11---------12p11-12p11-------12p11-12~--------|
A#|-------12------------------12---------------------|
F |----------14------------------14------------------|
C |--------------------------------------------------|

REFRÃO

C |-------------------------------------------------------------|
G |-------------------------------------------------------------|
D#|-------------------------------------------------------------|
A#|------------------5--5---7--7--------------------------------|
F |--2-222-2-(5)-2---3--3---5--5--------------------------------|
C |--0-000-0-(3)-0----------------------------------------------|

C |--------------------|-----------------------------|
G |--------------------|-----------------------------|
D#|--------------------|-----------------------------|
A#|------------------5-|-----------------------------|
F |--2-222-2-(5)-2---3-|--5-----4-----3--------------|
C |--0-000-0-(3)-0-----|----3-0---3-0---3------------|

C |-------------------------------------------------------------|
G |-------------------------------------------------------------|
D#|-------------------------------------------------------------|
A#|------------------5--5---7--7--------------------------------|
F |--2-222-2-(5)-2---3--3---5--5--------------------------------|
C |--0-000-0-(3)-0----------------------------------------------|

C |--------------------|----------------|
G |--------------------|----------------|
D#|--------------------|----------------|
A#|------------------5-|----------------|
F |--2-222-2-(5)-2---3-|--7-10-7-5~-----|
C |--0-000-0-(3)-0-----|----------------|

PONTE
PM ****************
C |-----------------------------------------|
G |-----------------------------------------|
D#|-----------------------------------------|
A#|-----------------------------------------|
F |--5-----4-----3--------------------------|
C |----3-0---3-0---3----0--000--0--000--000-|

C |-------------------------------------------------|
G |-------------------------------------------------|
D#|-------------------------------------------------|
A#|-------------------------------------------------|
F |--5-----4-----3-----5---4------------------------|
C |----3-0---3-0---3------3--3--0--000--0--000--000-|

C |-----------------------------------------|
G |-----------------------------------------|
D#|-----------------------------------------|
A#|-----------------------------------------|
F |--5-----4-----3--------------------------|
C |----3-0---3-0---3----0--000--0--000--000-|

C |------------------------------|-----------------|
G |------------------------------|-----------------|
D#|------------------------------|-----------------|
A#|------------------------------|-----------------|
F |--5-----4-----3-----5---4-----|-5-----4-----3---|
C |----3-0---3-0---3------3--3---|---3-0---3-0---3-|



SOLO

C |----------3-----------------------------------------------|
G |-------------6p3---4p3---3-----3--------------------------|
D#|-5b7--5b7--------5-----5---5h6---5h6p5p3----5----3b5b3~---|
A#|------------------------------------------5---5-----------|
F |----------------------------------------------------------|
C |----------------------------------------------------------|

C |---------------------------------------------10-12-13-------------|
G |-------------------------------------10-12-13--------10-12-13-----|
D#|---------------7-9-10---------9-10-12-----------------------------|
A#|--------7-9-10--------9-10-12-------------------------------------|
F |-7-8-10-----------------------------------------------------------|
C |------------------------------------------------------------------|

.. Executa o RIFF 1A
C |-10-12-13b15~~~----|
G |-------------------|
D#|-------------------|
A#|-------------------|
F |-------------------|
C |-------------------|

SOLO (PARTE FINAL)

C |-------------------------------------------|
G |-------------------------------------------|
D#|-------------------------------------------|
A#|-------------------------------12-13-15----|
F |----------10-12-13~----12-13-15------------|
C |-10-12-13----------------------------------|


C |------------------------------------------------------------------------|
G |----------12------------------------------------------------------------|
D#|-11-12-14----14-12-11-9---------------9---------------------------------|
A#|------------------------12-10-9-10-12---12-10-9----------------7--------|
F |-------------------------------------------------12-10-9-7-9-10--10-9-7-|
C |------------------------------------------------------------------------|

PM******************************
C |--------------------------------------------|
G |--------------------------------------------|
D#|--------------------------------------------|
A#|--------------------------------------------|
F |--------------------------------------------|
C |--10-8-7----00000----0-000--0----0000000----|






FINAL
PM ****************
C |-----------------------------------------|
G |-----------------------------------------|
D#|-----------------------------------------|
A#|-----------------------------------------|
F |--5-----4-----3--------------------------|
C |----3-0---3-0---3----0--000--0--000--000-|

C |-------------------------------------------------|
G |-------------------------------------------------|
D#|-------------------------------------------------|
A#|-------------------------------------------------|
F |--5-----4-----3-----5---4------------------------|
C |----3-0---3-0---3------3--3--0--000--0--000--000-|

C |-----------------------------------------|
G |-----------------------------------------|
D#|-----------------------------------------|
A#|-----------------------------------------|
F |--5-----4-----3--------------------------|
C |----3-0---3-0---3----0--000--0--000--000-|

C |------------------------------|----------------------|
G |------------------------------|----------------------|
D#|------------------------------|----------------------|
A#|------------------------------|----------------------|
F |--5-----4-----3-----5---4-----|-5-----4-----3--------|
C |----3-0---3-0---3------3--3---|---3-0---3-0---2b3~~~-|