fbpx

O melhor site de cifras gospel do Brasil! Acesse:
escoladolouvor.com

[Intro] Dm F Am G

E|------------------------------------------|
B|------------------------------------------|
G|------------------------------------------|
D|-5~--3-5~--3-5-3-5h7p5\3-0---2~-----------|
A|---------------------------0--------------|
E|------------------------------------------|


E|------------------------------------------|
B|------------------------------------------|
G|------------------------------------------|
D|-0-2~--0-2p0-2h3p2p0----------------------|
A|---------------------3p0------------------|
E|------------------------------------------|


E|------------------------------------------|
B|------------------------------------------|
G|------------------------------------------|
D|------------------------------------------|
A|-7~--5-7~--5-7p5-7h8p7p5--3-0-------------|
E|------------------------------------------|


E|------------------------------------------|
B|------------------------------------------|
G|------------------------------------------|
D|------------------------------------------|
A|-----5~--3-5~--3-5~-8-7-5-3---------------|
E|----------------------------7-5-3p0~------|

Dm F
Em direção ao rio
Am
Cumprindo sua missão
G
Da Galiléia veio em minha direção

F Am G
Como posso eu, um mero pecador
Dm
Batizar nas águas o meu Senhor?

Bb9 G
Eu não sou merecedor de com minhas mãos te mergulhar
F Gm Dm
Se digno eu não sou de suas sandálias desatar

Bb9
Deixa assim acontecer
G
Mesmo sem você entender
F
São os planos do meu Pai
Gm Dm
Pra justiça se cumprir
Gm Dm
O começo é aqui
Gm G4 G5
O Pai quem me enviou

D D5
O céu se abriu
Gm
E a terra se curvou
Bb9
Das águas levantou
C
O filho de Deus
D D5
O céu se abriu
Gm
O Espírito desceu
Bb9
O filho revelou
C
E o Pai falou

( Dm F Am G )

E|------------------------------------------|
B|------------------------------------------|
G|------------------------------------------|
D|-5~--3-5~--3-5-3-5h7p5\3-0---2~-----------|
A|---------------------------0--------------|
E|------------------------------------------|

E|------------------------------------------|
B|------------------------------------------|
G|------------------------------------------|
D|-0-2~--0-2p0-2h3p2p0----------------------|
A|---------------------3p0------------------|
E|------------------------------------------|

E|------------------------------------------|
B|------------------------------------------|
G|------------------------------------------|
D|------------------------------------------|
A|-7~--5-7~--5-7p5-7h8p7p5--3-0-------------|
E|------------------------------------------|

E|------------------------------------------|
B|------------------------------------------|
G|------------------------------------------|
D|------------------------------------------|
A|-----5~--3-5~--3-5~-8-7-5-3---------------|
E|----------------------------7-5-3p0~------|

Dm F
Com os meus olhos vi
Am
Sair do rio Jordão
G
O rio de água viva, a salvação
F Am G
Como posso eu, um mero pecador
Dm
Batizar nas águas o meu Senhor?

Bb9 G
Eu não sou merecedor de com minhas mãos te mergulhar
F Gm Dm
Se digno eu não sou de suas sandálias desatar

Bb9
Deixa assim acontecer
G
Mesmo sem você entender
F
São os planos do meu Pai
Gm Dm
Pra justiça se cumprir
Gm Dm
O começo é aqui
Gm G4 G5
O Pai quem me enviou

D D5
O céu se abriu
Gm
E a terra se curvou
Bb9
Das águas levantou
C
O filho de Deus
D D5
O céu se abriu
Gm
O Espírito desceu
Bb9
O filho revelou
C Dm
E o Pai falou

[Solo] Gm Bb C Dm
Gm G

Dm F
Com os meus olhos vi
Am
Sair do rio Jordão
G9 G
A fonte de água viva

D9 Am11
Este é o meu filho amado
G D D9
Que traz o sorriso aos meus lábios
Em
Este é o meu filho amado
G F#m
Que traz o sorriso aos meus lábios

Am C9
Hosana, Hosana
G D
Hosana ao nosso rei

Am C9
Hosana, Hosana
G D9/F#
Hosana ao nosso rei

Em C9
Hosana, Hosana
G A D
Hosana ao nosso rei